ISO-10303-21;
HEADER;
FILE_DESCRIPTION (( 'STEP AP203' ),
    '1' );
FILE_NAME ('500004_c_1.STEP',
    '2023-05-11T15:22:32',
    ( '' ),
    ( '' ),
    'SwSTEP 2.0',
    'SolidWorks 2014',
    '' );
FILE_SCHEMA (( 'CONFIG_CONTROL_DESIGN' ));
ENDSEC;

DATA;
#1 = LOCAL_TIME ( 8, 22, 32.00000000000000000, #108 ) ;
#2 = LINE ( 'NONE', #219, #106 ) ;
#3 = CC_DESIGN_APPROVAL ( #47, ( #168 ) ) ;
#4 = PRODUCT_DEFINITION_SHAPE ( 'NONE', 'NONE',  #168 ) ;
#5 = VERTEX_POINT ( 'NONE', #88 ) ;
#6 = ORGANIZATION ( 'UNSPECIFIED', 'UNSPECIFIED', '' ) ;
#7 = ORIENTED_EDGE ( 'NONE', *, *, #222, .T. ) ;
#8 = LINE ( 'NONE', #170, #203 ) ;
#9 = ORIENTED_EDGE ( 'NONE', *, *, #222, .F. ) ;
#10 = DIRECTION ( 'NONE',  ( -1.000000000000000000, 0.0000000000000000000, -0.0000000000000000000 ) ) ;
#11 = APPROVAL_STATUS ( 'not_yet_approved' ) ;
#12 = APPROVAL ( #11, 'UNSPECIFIED' ) ;
#13 =( NAMED_UNIT ( * ) PLANE_ANGLE_UNIT ( ) SI_UNIT ( $, .RADIAN. ) );
#14 = DIRECTION ( 'NONE',  ( 0.0000000000000000000, 1.000000000000000000, 0.0000000000000000000 ) ) ;
#15 = FACE_OUTER_BOUND ( 'NONE', #49, .T. ) ;
#16 = VERTEX_POINT ( 'NONE', #157 ) ;
#17 = CARTESIAN_POINT ( 'NONE',  ( 625.0000000000001100, -1249.999999999999800, 4.000000000000000000 ) ) ;
#18 = EDGE_CURVE ( 'NONE', #110, #115, #2, .T. ) ;
#19 = VERTEX_POINT ( 'NONE', #121 ) ;
#20 = ORIENTED_EDGE ( 'NONE', *, *, #18, .T. ) ;
#21 = PERSON_AND_ORGANIZATION ( #73, #6 ) ;
#22 = CARTESIAN_POINT ( 'NONE',  ( 0.0000000000000000000, -1249.999999999999800, 4.000000000000000000 ) ) ;
#23 = DIRECTION ( 'NONE',  ( 0.0000000000000000000, 1.000000000000000000, 0.0000000000000000000 ) ) ;
#24 = CC_DESIGN_PERSON_AND_ORGANIZATION_ASSIGNMENT ( #155, #63, ( #174 ) ) ;
#25 = ORIENTED_EDGE ( 'NONE', *, *, #80, .T. ) ;
#26 = COORDINATED_UNIVERSAL_TIME_OFFSET ( 8, 0, .BEHIND. ) ;
#27 = CARTESIAN_POINT ( 'NONE',  ( 625.0000000000001100, 1250.000000000000200, 0.0000000000000000000 ) ) ;
#28 = CARTESIAN_POINT ( 'NONE',  ( -624.9999999999998900, -1249.999999999999800, 4.000000000000000000 ) ) ;
#29 = DATE_AND_TIME ( #76, #124 ) ;
#30 = VERTEX_POINT ( 'NONE', #27 ) ;
#31 = EDGE_CURVE ( 'NONE', #110, #19, #205, .T. ) ;
#32 = DIRECTION ( 'NONE',  ( 0.0000000000000000000, 0.0000000000000000000, 1.000000000000000000 ) ) ;
#33 = PERSON_AND_ORGANIZATION ( #73, #6 ) ;
#34 = APPROVAL ( #107, 'UNSPECIFIED' ) ;
#35 = LINE ( 'NONE', #112, #120 ) ;
#36 = PERSON_AND_ORGANIZATION ( #73, #6 ) ;
#37 = CARTESIAN_POINT ( 'NONE',  ( 0.0000000000000000000, 1250.000000000000200, 4.000000000000000000 ) ) ;
#38 = EDGE_LOOP ( 'NONE', ( #158, #7, #166, #234 ) ) ;
#39 = ADVANCED_FACE ( 'NONE', ( #211 ), #84, .T. ) ;
#40 = ADVANCED_FACE ( 'NONE', ( #15 ), #138, .F. ) ;
#41 = DIRECTION ( 'NONE',  ( -0.0000000000000000000, -1.000000000000000000, -0.0000000000000000000 ) ) ;
#42 = AXIS2_PLACEMENT_3D ( 'NONE', #177, #62, #216 ) ;
#43 = CALENDAR_DATE ( 2023, 11, 5 ) ;
#44 = ORIENTED_EDGE ( 'NONE', *, *, #31, .T. ) ;
#45 = CARTESIAN_POINT ( 'NONE',  ( -624.9999999999998900, 0.0000000000000000000, 4.000000000000000000 ) ) ;
#46 =( LENGTH_UNIT ( ) NAMED_UNIT ( * ) SI_UNIT ( .MILLI., .METRE. ) );
#47 = APPROVAL ( #212, 'UNSPECIFIED' ) ;
#48 = VECTOR ( 'NONE', #209, 1000.000000000000000 ) ;
#49 = EDGE_LOOP ( 'NONE', ( #9, #144, #64, #71 ) ) ;
#50 =( GEOMETRIC_REPRESENTATION_CONTEXT ( 3 ) GLOBAL_UNCERTAINTY_ASSIGNED_CONTEXT ( ( #167 ) ) GLOBAL_UNIT_ASSIGNED_CONTEXT ( ( #46, #13, #78 ) ) REPRESENTATION_CONTEXT ( 'NONE', 'WORKASPACE' ) );
#51 = COORDINATED_UNIVERSAL_TIME_OFFSET ( 8, 0, .BEHIND. ) ;
#52 = VECTOR ( 'NONE', #41, 1000.000000000000000 ) ;
#53 = CARTESIAN_POINT ( 'NONE',  ( -624.9999999999998900, -1249.999999999999800, 4.000000000000000000 ) ) ;
#54 = DIRECTION ( 'NONE',  ( 0.0000000000000000000, -1.000000000000000000, 0.0000000000000000000 ) ) ;
#55 = CC_DESIGN_DATE_AND_TIME_ASSIGNMENT ( #29, #122, ( #168 ) ) ;
#56 = ORIENTED_EDGE ( 'NONE', *, *, #207, .T. ) ;
#57 = VERTEX_POINT ( 'NONE', #65 ) ;
#58 = APPLICATION_CONTEXT ( 'configuration controlled 3d designs of mechanical parts and assemblies' ) ;
#59 = AXIS2_PLACEMENT_3D ( 'NONE', #214, #102, #232 ) ;
#60 = LINE ( 'NONE', #94, #52 ) ;
#61 = CC_DESIGN_APPROVAL ( #12, ( #195 ) ) ;
#62 = DIRECTION ( 'NONE',  ( -1.000000000000000000, 0.0000000000000000000, 0.0000000000000000000 ) ) ;
#63 = PERSON_AND_ORGANIZATION_ROLE ( 'classification_officer' ) ;
#64 = ORIENTED_EDGE ( 'NONE', *, *, #197, .F. ) ;
#65 = CARTESIAN_POINT ( 'NONE',  ( 625.0000000000001100, -1249.999999999999800, 0.0000000000000000000 ) ) ;
#66 = ADVANCED_BREP_SHAPE_REPRESENTATION ( '500004_c_1', ( #100, #79 ), #50 ) ;
#67 = PERSON_AND_ORGANIZATION_ROLE ( 'design_supplier' ) ;
#68 = CARTESIAN_POINT ( 'NONE',  ( -624.9999999999998900, 1250.000000000000200, 0.0000000000000000000 ) ) ;
#69 = LOCAL_TIME ( 8, 22, 32.00000000000000000, #141 ) ;
#70 = CC_DESIGN_APPROVAL ( #34, ( #174 ) ) ;
#71 = ORIENTED_EDGE ( 'NONE', *, *, #171, .F. ) ;
#72 = SHAPE_DEFINITION_REPRESENTATION ( #4, #66 ) ;
#73 = PERSON ( 'UNSPECIFIED', 'UNSPECIFIED', 'UNSPECIFIED', ('UNSPECIFIED'), ('UNSPECIFIED'), ('UNSPECIFIED') ) ;
#74 = PLANE ( 'NONE',  #135 ) ;
#75 = CC_DESIGN_PERSON_AND_ORGANIZATION_ASSIGNMENT ( #89, #87, ( #195 ) ) ;
#76 = CALENDAR_DATE ( 2023, 11, 5 ) ;
#77 = ORIENTED_EDGE ( 'NONE', *, *, #18, .F. ) ;
#78 =( NAMED_UNIT ( * ) SI_UNIT ( $, .STERADIAN. ) SOLID_ANGLE_UNIT ( ) );
#79 = AXIS2_PLACEMENT_3D ( 'NONE', #104, #200, #139 ) ;
#80 = EDGE_CURVE ( 'NONE', #146, #30, #101, .T. ) ;
#81 = DESIGN_CONTEXT ( 'detailed design', #58, 'design' ) ;
#82 = LINE ( 'NONE', #17, #148 ) ;
#83 = ORIENTED_EDGE ( 'NONE', *, *, #231, .T. ) ;
#84 = PLANE ( 'NONE',  #59 ) ;
#85 = CC_DESIGN_SECURITY_CLASSIFICATION ( #174, ( #195 ) ) ;
#86 = CARTESIAN_POINT ( 'NONE',  ( -624.9999999999998900, -1249.999999999999800, 0.0000000000000000000 ) ) ;
#87 = PERSON_AND_ORGANIZATION_ROLE ( 'creator' ) ;
#88 = CARTESIAN_POINT ( 'NONE',  ( 625.0000000000001100, -1249.999999999999800, 4.000000000000000000 ) ) ;
#89 = PERSON_AND_ORGANIZATION ( #73, #6 ) ;
#90 = CC_DESIGN_PERSON_AND_ORGANIZATION_ASSIGNMENT ( #21, #67, ( #195 ) ) ;
#91 = LINE ( 'NONE', #96, #134 ) ;
#92 = DATE_AND_TIME ( #190, #1 ) ;
#93 = DATE_AND_TIME ( #189, #69 ) ;
#94 = CARTESIAN_POINT ( 'NONE',  ( 625.0000000000001100, 0.0000000000000000000, 4.000000000000000000 ) ) ;
#95 = LOCAL_TIME ( 8, 22, 32.00000000000000000, #26 ) ;
#96 = CARTESIAN_POINT ( 'NONE',  ( -624.9999999999998900, -1249.999999999999800, 0.0000000000000000000 ) ) ;
#97 = CLOSED_SHELL ( 'NONE', ( #40, #113, #191, #169, #228, #39 ) ) ;
#98 = DIRECTION ( 'NONE',  ( 1.000000000000000000, -0.0000000000000000000, 0.0000000000000000000 ) ) ;
#99 = APPROVAL_ROLE ( '' ) ;
#100 = MANIFOLD_SOLID_BREP ( 'NONE', #97 ) ;
#101 = LINE ( 'NONE', #133, #196 ) ;
#102 = DIRECTION ( 'NONE',  ( 0.0000000000000000000, 0.0000000000000000000, -1.000000000000000000 ) ) ;
#103 = AXIS2_PLACEMENT_3D ( 'NONE', #119, #215, #10 ) ;
#104 = CARTESIAN_POINT ( 'NONE',  ( 0.0000000000000000000, 0.0000000000000000000, 0.0000000000000000000 ) ) ;
#105 = PERSON_AND_ORGANIZATION ( #73, #6 ) ;
#106 = VECTOR ( 'NONE', #184, 1000.000000000000000 ) ;
#107 = APPROVAL_STATUS ( 'not_yet_approved' ) ;
#108 = COORDINATED_UNIVERSAL_TIME_OFFSET ( 8, 0, .BEHIND. ) ;
#109 = EDGE_LOOP ( 'NONE', ( #77, #44, #187, #111 ) ) ;
#110 = VERTEX_POINT ( 'NONE', #28 ) ;
#111 = ORIENTED_EDGE ( 'NONE', *, *, #125, .F. ) ;
#112 = CARTESIAN_POINT ( 'NONE',  ( -624.9999999999998900, 1250.000000000000200, 4.000000000000000000 ) ) ;
#113 = ADVANCED_FACE ( 'NONE', ( #136 ), #198, .F. ) ;
#114 = DIRECTION ( 'NONE',  ( 0.0000000000000000000, 0.0000000000000000000, -1.000000000000000000 ) ) ;
#115 = VERTEX_POINT ( 'NONE', #235 ) ;
#116 = CALENDAR_DATE ( 2023, 11, 5 ) ;
#117 = ORIENTED_EDGE ( 'NONE', *, *, #171, .T. ) ;
#118 = APPROVAL_DATE_TIME ( #194, #47 ) ;
#119 = CARTESIAN_POINT ( 'NONE',  ( 0.0000000000000000000, 0.0000000000000000000, 4.000000000000000000 ) ) ;
#120 = VECTOR ( 'NONE', #131, 1000.000000000000000 ) ;
#121 = CARTESIAN_POINT ( 'NONE',  ( -624.9999999999998900, 1250.000000000000200, 4.000000000000000000 ) ) ;
#122 = DATE_TIME_ROLE ( 'creation_date' ) ;
#123 = AXIS2_PLACEMENT_3D ( 'NONE', #53, #127, #114 ) ;
#124 = LOCAL_TIME ( 8, 22, 32.00000000000000000, #179 ) ;
#125 = EDGE_CURVE ( 'NONE', #115, #146, #126, .T. ) ;
#126 = LINE ( 'NONE', #86, #230 ) ;
#127 = DIRECTION ( 'NONE',  ( 1.000000000000000000, -0.0000000000000000000, 0.0000000000000000000 ) ) ;
#128 = LINE ( 'NONE', #37, #218 ) ;
#129 = PLANE ( 'NONE',  #123 ) ;
#130 = CC_DESIGN_PERSON_AND_ORGANIZATION_ASSIGNMENT ( #226, #162, ( #225 ) ) ;
#131 = DIRECTION ( 'NONE',  ( 0.0000000000000000000, -0.0000000000000000000, -1.000000000000000000 ) ) ;
#132 = APPROVAL_DATE_TIME ( #93, #12 ) ;
#133 = CARTESIAN_POINT ( 'NONE',  ( -624.9999999999998900, 1250.000000000000200, 0.0000000000000000000 ) ) ;
#134 = VECTOR ( 'NONE', #193, 1000.000000000000000 ) ;
#135 = AXIS2_PLACEMENT_3D ( 'NONE', #175, #54, #208 ) ;
#136 = FACE_OUTER_BOUND ( 'NONE', #224, .T. ) ;
#137 = APPROVAL_ROLE ( '' ) ;
#138 = PLANE ( 'NONE',  #103 ) ;
#139 = DIRECTION ( 'NONE',  ( 1.000000000000000000, 0.0000000000000000000, 0.0000000000000000000 ) ) ;
#140 = DIRECTION ( 'NONE',  ( 0.0000000000000000000, 1.000000000000000000, 0.0000000000000000000 ) ) ;
#141 = COORDINATED_UNIVERSAL_TIME_OFFSET ( 8, 0, .BEHIND. ) ;
#142 = AXIS2_PLACEMENT_3D ( 'NONE', #150, #23, #151 ) ;
#143 = APPROVAL_PERSON_ORGANIZATION ( #36, #47, #183 ) ;
#144 = ORIENTED_EDGE ( 'NONE', *, *, #31, .F. ) ;
#145 = LOCAL_TIME ( 8, 22, 32.00000000000000000, #51 ) ;
#146 = VERTEX_POINT ( 'NONE', #68 ) ;
#147 = APPROVAL_DATE_TIME ( #229, #34 ) ;
#148 = VECTOR ( 'NONE', #32, 1000.000000000000000 ) ;
#149 = EDGE_LOOP ( 'NONE', ( #83, #204, #20, #181 ) ) ;
#150 = CARTESIAN_POINT ( 'NONE',  ( -624.9999999999998900, -1249.999999999999800, 4.000000000000000000 ) ) ;
#151 = DIRECTION ( 'NONE',  ( 0.0000000000000000000, -0.0000000000000000000, 1.000000000000000000 ) ) ;
#152 = ORIENTED_EDGE ( 'NONE', *, *, #125, .T. ) ;
#153 = DIRECTION ( 'NONE',  ( -0.0000000000000000000, -0.0000000000000000000, -1.000000000000000000 ) ) ;
#154 = EDGE_CURVE ( 'NONE', #30, #57, #163, .T. ) ;
#155 = PERSON_AND_ORGANIZATION ( #73, #6 ) ;
#156 = DIRECTION ( 'NONE',  ( 1.000000000000000000, 0.0000000000000000000, 0.0000000000000000000 ) ) ;
#157 = CARTESIAN_POINT ( 'NONE',  ( 625.0000000000001100, 1250.000000000000200, 4.000000000000000000 ) ) ;
#158 = ORIENTED_EDGE ( 'NONE', *, *, #164, .F. ) ;
#159 = CC_DESIGN_DATE_AND_TIME_ASSIGNMENT ( #92, #237, ( #174 ) ) ;
#160 = APPLICATION_CONTEXT ( 'configuration controlled 3d designs of mechanical parts and assemblies' ) ;
#161 = APPLICATION_PROTOCOL_DEFINITION ( 'international standard', 'config_control_design', 1994, #160 ) ;
#162 = PERSON_AND_ORGANIZATION_ROLE ( 'design_owner' ) ;
#163 = LINE ( 'NONE', #236, #48 ) ;
#164 = EDGE_CURVE ( 'NONE', #19, #146, #35, .T. ) ;
#165 = ORIENTED_EDGE ( 'NONE', *, *, #178, .F. ) ;
#166 = ORIENTED_EDGE ( 'NONE', *, *, #178, .T. ) ;
#167 = UNCERTAINTY_MEASURE_WITH_UNIT (LENGTH_MEASURE( 1.000000000000000100E-005 ), #46, 'distance_accuracy_value', 'NONE');
#168 = PRODUCT_DEFINITION ( 'UNKNOWN', '', #195, #81 ) ;
#169 = ADVANCED_FACE ( 'NONE', ( #176 ), #129, .F. ) ;
#170 = CARTESIAN_POINT ( 'NONE',  ( 625.0000000000001100, 1250.000000000000200, 4.000000000000000000 ) ) ;
#171 = EDGE_CURVE ( 'NONE', #16, #5, #60, .T. ) ;
#172 = FACE_OUTER_BOUND ( 'NONE', #149, .T. ) ;
#173 = DIRECTION ( 'NONE',  ( -1.000000000000000000, 0.0000000000000000000, -0.0000000000000000000 ) ) ;
#174 = SECURITY_CLASSIFICATION ( '', '', #220 ) ;
#175 = CARTESIAN_POINT ( 'NONE',  ( -624.9999999999998900, 1250.000000000000200, 4.000000000000000000 ) ) ;
#176 = FACE_OUTER_BOUND ( 'NONE', #109, .T. ) ;
#177 = CARTESIAN_POINT ( 'NONE',  ( 625.0000000000001100, -1249.999999999999800, 4.000000000000000000 ) ) ;
#178 = EDGE_CURVE ( 'NONE', #16, #30, #8, .T. ) ;
#179 = COORDINATED_UNIVERSAL_TIME_OFFSET ( 8, 0, .BEHIND. ) ;
#180 = MECHANICAL_CONTEXT ( 'NONE', #160, 'mechanical' ) ;
#181 = ORIENTED_EDGE ( 'NONE', *, *, #207, .F. ) ;
#182 = PERSON_AND_ORGANIZATION_ROLE ( 'creator' ) ;
#183 = APPROVAL_ROLE ( '' ) ;
#184 = DIRECTION ( 'NONE',  ( 0.0000000000000000000, 0.0000000000000000000, -1.000000000000000000 ) ) ;
#185 = CC_DESIGN_PERSON_AND_ORGANIZATION_ASSIGNMENT ( #233, #182, ( #168 ) ) ;
#186 = VECTOR ( 'NONE', #173, 1000.000000000000000 ) ;
#187 = ORIENTED_EDGE ( 'NONE', *, *, #164, .T. ) ;
#188 = PRODUCT_RELATED_PRODUCT_CATEGORY ( 'detail', '', ( #225 ) ) ;
#189 = CALENDAR_DATE ( 2023, 11, 5 ) ;
#190 = CALENDAR_DATE ( 2023, 11, 5 ) ;
#191 = ADVANCED_FACE ( 'NONE', ( #213 ), #74, .F. ) ;
#192 = ORIENTED_EDGE ( 'NONE', *, *, #154, .F. ) ;
#193 = DIRECTION ( 'NONE',  ( -1.000000000000000000, -0.0000000000000000000, 0.0000000000000000000 ) ) ;
#194 = DATE_AND_TIME ( #43, #95 ) ;
#195 = PRODUCT_DEFINITION_FORMATION_WITH_SPECIFIED_SOURCE ( 'ANY', '', #225, .NOT_KNOWN. ) ;
#196 = VECTOR ( 'NONE', #156, 1000.000000000000000 ) ;
#197 = EDGE_CURVE ( 'NONE', #5, #110, #223, .T. ) ;
#198 = PLANE ( 'NONE',  #42 ) ;
#199 = APPROVAL_PERSON_ORGANIZATION ( #105, #34, #99 ) ;
#200 = DIRECTION ( 'NONE',  ( 0.0000000000000000000, 0.0000000000000000000, 1.000000000000000000 ) ) ;
#201 = ORIENTED_EDGE ( 'NONE', *, *, #231, .F. ) ;
#202 = APPLICATION_PROTOCOL_DEFINITION ( 'international standard', 'config_control_design', 1994, #58 ) ;
#203 = VECTOR ( 'NONE', #153, 1000.000000000000000 ) ;
#204 = ORIENTED_EDGE ( 'NONE', *, *, #197, .T. ) ;
#205 = LINE ( 'NONE', #45, #210 ) ;
#206 = PLANE ( 'NONE',  #142 ) ;
#207 = EDGE_CURVE ( 'NONE', #57, #115, #91, .T. ) ;
#208 = DIRECTION ( 'NONE',  ( 0.0000000000000000000, -0.0000000000000000000, -1.000000000000000000 ) ) ;
#209 = DIRECTION ( 'NONE',  ( -0.0000000000000000000, -1.000000000000000000, 0.0000000000000000000 ) ) ;
#210 = VECTOR ( 'NONE', #140, 1000.000000000000000 ) ;
#211 = FACE_OUTER_BOUND ( 'NONE', #217, .T. ) ;
#212 = APPROVAL_STATUS ( 'not_yet_approved' ) ;
#213 = FACE_OUTER_BOUND ( 'NONE', #38, .T. ) ;
#214 = CARTESIAN_POINT ( 'NONE',  ( 0.0000000000000000000, 0.0000000000000000000, 0.0000000000000000000 ) ) ;
#215 = DIRECTION ( 'NONE',  ( 0.0000000000000000000, 0.0000000000000000000, -1.000000000000000000 ) ) ;
#216 = DIRECTION ( 'NONE',  ( 0.0000000000000000000, 0.0000000000000000000, 1.000000000000000000 ) ) ;
#217 = EDGE_LOOP ( 'NONE', ( #152, #25, #227, #56 ) ) ;
#218 = VECTOR ( 'NONE', #98, 1000.000000000000000 ) ;
#219 = CARTESIAN_POINT ( 'NONE',  ( -624.9999999999998900, -1249.999999999999800, 4.000000000000000000 ) ) ;
#220 = SECURITY_CLASSIFICATION_LEVEL ( 'unclassified' ) ;
#221 = APPROVAL_PERSON_ORGANIZATION ( #33, #12, #137 ) ;
#222 = EDGE_CURVE ( 'NONE', #19, #16, #128, .T. ) ;
#223 = LINE ( 'NONE', #22, #186 ) ;
#224 = EDGE_LOOP ( 'NONE', ( #165, #117, #201, #192 ) ) ;
#225 = PRODUCT ( '500004_c_1', '500004_c_1', '', ( #180 ) ) ;
#226 = PERSON_AND_ORGANIZATION ( #73, #6 ) ;
#227 = ORIENTED_EDGE ( 'NONE', *, *, #154, .T. ) ;
#228 = ADVANCED_FACE ( 'NONE', ( #172 ), #206, .F. ) ;
#229 = DATE_AND_TIME ( #116, #145 ) ;
#230 = VECTOR ( 'NONE', #14, 1000.000000000000000 ) ;
#231 = EDGE_CURVE ( 'NONE', #57, #5, #82, .T. ) ;
#232 = DIRECTION ( 'NONE',  ( -1.000000000000000000, 0.0000000000000000000, -0.0000000000000000000 ) ) ;
#233 = PERSON_AND_ORGANIZATION ( #73, #6 ) ;
#234 = ORIENTED_EDGE ( 'NONE', *, *, #80, .F. ) ;
#235 = CARTESIAN_POINT ( 'NONE',  ( -624.9999999999998900, -1249.999999999999800, 0.0000000000000000000 ) ) ;
#236 = CARTESIAN_POINT ( 'NONE',  ( 625.0000000000001100, -1249.999999999999800, 0.0000000000000000000 ) ) ;
#237 = DATE_TIME_ROLE ( 'classification_date' ) ;
ENDSEC;
END-ISO-10303-21;
